  0
SECTION
  2
HEADER
  9
$ACADVER
  1
AC1015
  9
$ACADMAINTVER
 70
     6
  9
$DWGCODEPAGE
  3
ANSI_1254
  9
$INSBASE
 10
0.0
 20
0.0
 30
0.0
  9
$EXTMIN
 10
0.0
 20
0.0
 30
0.0
  9
$EXTMAX
 10
279.4
 20
215.9
 30
0.0
  9
$LIMMIN
 10
0.0
 20
0.0
  9
$LIMMAX
 10
279.4
 20
215.9
  9
$ORTHOMODE
 70
     0
  9
$REGENMODE
 70
     1
  9
$FILLMODE
 70
     1
  9
$QTEXTMODE
 70
     0
  9
$MIRRTEXT
 70
     1
  9
$LTSCALE
 40
1.0
  9
$ATTMODE
 70
     1
  9
$TEXTSIZE
 40
3.5
  9
$TRACEWID
 40
1.0
  9
$TEXTSTYLE
  7
Standard
  9
$CLAYER
  8
0
  9
$CELTYPE
  6
ByLayer
  9
$CECOLOR
 62
   256
  9
$CELTSCALE
 40
1.0
  9
$DISPSILH
 70
     0
  9
$DIMSCALE
 40
1.0
  9
$DIMASZ
 40
3.5
  9
$DIMEXO
 40
1.0
  9
$DIMDLI
 40
3.75
  9
$DIMRND
 40
0.0
  9
$DIMDLE
 40
0.0
  9
$DIMEXE
 40
1.0
  9
$DIMTP
 40
0.0
  9
$DIMTM
 40
0.0
  9
$DIMTXT
 40
3.5
  9
$DIMCEN
 40
2.5
  9
$DIMTSZ
 40
0.0
  9
$DIMTOL
 70
     0
  9
$DIMLIM
 70
     0
  9
$DIMTIH
 70
     1
  9
$DIMTOH
 70
     1
  9
$DIMSE1
 70
     0
  9
$DIMSE2
 70
     0
  9
$DIMTAD
 70
     1
  9
$DIMZIN
 70
     0
  9
$DIMBLK
  1

  9
$DIMASO
 70
     1
  9
$DIMSHO
 70
     1
  9
$DIMPOST
  1

  9
$DIMAPOST
  1

  9
$DIMALT
 70
     0
  9
$DIMALTD
 70
     3
  9
$DIMALTF
 40
0.0393700787
  9
$DIMLFAC
 40
1.0
  9
$DIMTOFL
 70
     1
  9
$DIMTVP
 40
0.0
  9
$DIMTIX
 70
     0
  9
$DIMSOXD
 70
     0
  9
$DIMSAH
 70
     0
  9
$DIMBLK1
  1

  9
$DIMBLK2
  1

  9
$DIMSTYLE
  2
ISO-25
  9
$DIMCLRD
 70
     0
  9
$DIMCLRE
 70
     0
  9
$DIMCLRT
 70
     0
  9
$DIMTFAC
 40
1.0
  9
$DIMGAP
 40
1.524
  9
$DIMJUST
 70
     0
  9
$DIMSD1
 70
     0
  9
$DIMSD2
 70
     0
  9
$DIMTOLJ
 70
     0
  9
$DIMTZIN
 70
     0
  9
$DIMALTZ
 70
     0
  9
$DIMALTTZ
 70
     0
  9
$DIMUPT
 70
     0
  9
$DIMDEC
 70
     2
  9
$DIMTDEC
 70
     2
  9
$DIMALTU
 70
     2
  9
$DIMALTTD
 70
     3
  9
$DIMTXSTY
  7
Standard
  9
$DIMAUNIT
 70
     0
  9
$DIMADEC
 70
     2
  9
$DIMALTRND
 40
0.0
  9
$DIMAZIN
 70
     0
  9
$DIMDSEP
 70
    44
  9
$DIMATFIT
 70
     3
  9
$DIMFRAC
 70
     0
  9
$DIMLDRBLK
  1

  9
$DIMLUNIT
 70
     2
  9
$DIMLWD
 70
    -2
  9
$DIMLWE
 70
    -2
  9
$DIMTMOVE
 70
     0
  9
$LUNITS
 70
     2
  9
$LUPREC
 70
     2
  9
$SKETCHINC
 40
1.0
  9
$FILLETRAD
 40
10.0
  9
$AUNITS
 70
     0
  9
$AUPREC
 70
     2
  9
$MENU
  1
.
  9
$ELEVATION
 40
0.0
  9
$PELEVATION
 40
0.0
  9
$THICKNESS
 40
0.0
  9
$LIMCHECK
 70
     0
  9
$CHAMFERA
 40
0.0
  9
$CHAMFERB
 40
0.0
  9
$CHAMFERC
 40
0.0
  9
$CHAMFERD
 40
0.0
  9
$SKPOLY
 70
     0
  9
$TDCREATE
 40
2458985.705356122
  9
$TDUCREATE
 40
2458985.580356122
  9
$TDUPDATE
 40
2458985.705356447
  9
$TDUUPDATE
 40
2458985.580356447
  9
$TDINDWG
 40
0.0000000116
  9
$TDUSRTIMER
 40
0.0000000116
  9
$USRTIMER
 70
     1
  9
$ANGBASE
 50
0.0
  9
$ANGDIR
 70
     0
  9
$PDMODE
 70
     0
  9
$PDSIZE
 40
-1.0
  9
$PLINEWID
 40
0.0
  9
$SPLFRAME
 70
     0
  9
$SPLINETYPE
 70
     6
  9
$SPLINESEGS
 70
     8
  9
$HANDSEED
  5
EE
  9
$SURFTAB1
 70
     6
  9
$SURFTAB2
 70
     6
  9
$SURFTYPE
 70
     6
  9
$SURFU
 70
     6
  9
$SURFV
 70
     6
  9
$UCSBASE
  2

  9
$UCSNAME
  2

  9
$UCSORG
 10
0.0
 20
0.0
 30
0.0
  9
$UCSXDIR
 10
1.0
 20
0.0
 30
0.0
  9
$UCSYDIR
 10
0.0
 20
1.0
 30
0.0
  9
$UCSORTHOREF
  2

  9
$UCSORTHOVIEW
 70
     0
  9
$UCSORGTOP
 10
0.0
 20
0.0
 30
0.0
  9
$UCSORGBOTTOM
 10
0.0
 20
0.0
 30
0.0
  9
$UCSORGLEFT
 10
0.0
 20
0.0
 30
0.0
  9
$UCSORGRIGHT
 10
0.0
 20
0.0
 30
0.0
  9
$UCSORGFRONT
 10
0.0
 20
0.0
 30
0.0
  9
$UCSORGBACK
 10
0.0
 20
0.0
 30
0.0
  9
$PUCSBASE
  2

  9
$PUCSNAME
  2

  9
$PUCSORG
 10
0.0
 20
0.0
 30
0.0
  9
$PUCSXDIR
 10
1.0
 20
0.0
 30
0.0
  9
$PUCSYDIR
 10
0.0
 20
1.0
 30
0.0
  9
$PUCSORTHOREF
  2

  9
$PUCSORTHOVIEW
 70
     0
  9
$PUCSORGTOP
 10
0.0
 20
0.0
 30
0.0
  9
$PUCSORGBOTTOM
 10
0.0
 20
0.0
 30
0.0
  9
$PUCSORGLEFT
 10
0.0
 20
0.0
 30
0.0
  9
$PUCSORGRIGHT
 10
0.0
 20
0.0
 30
0.0
  9
$PUCSORGFRONT
 10
0.0
 20
0.0
 30
0.0
  9
$PUCSORGBACK
 10
0.0
 20
0.0
 30
0.0
  9
$USERI1
 70
     0
  9
$USERI2
 70
     0
  9
$USERI3
 70
     0
  9
$USERI4
 70
     0
  9
$USERI5
 70
     0
  9
$USERR1
 40
0.0
  9
$USERR2
 40
0.0
  9
$USERR3
 40
0.0
  9
$USERR4
 40
0.0
  9
$USERR5
 40
0.0
  9
$WORLDVIEW
 70
     1
  9
$SHADEDGE
 70
     3
  9
$SHADEDIF
 70
    70
  9
$TILEMODE
 70
     1
  9
$MAXACTVP
 70
    64
  9
$PINSBASE
 10
0.0
 20
0.0
 30
0.0
  9
$PLIMCHECK
 70
     0
  9
$PEXTMIN
 10
1.0000000000E+20
 20
1.0000000000E+20
 30
1.0000000000E+20
  9
$PEXTMAX
 10
-1.0000000000E+20
 20
-1.0000000000E+20
 30
-1.0000000000E+20
  9
$PLIMMIN
 10
0.0
 20
0.0
  9
$PLIMMAX
 10
420.0
 20
297.0
  9
$UNITMODE
 70
     0
  9
$VISRETAIN
 70
     1
  9
$PLINEGEN
 70
     0
  9
$PSLTSCALE
 70
     1
  9
$TREEDEPTH
 70
  3020
  9
$CMLSTYLE
  2
Standard
  9
$CMLJUST
 70
     0
  9
$CMLSCALE
 40
20.0
  9
$PROXYGRAPHICS
 70
     1
  9
$MEASUREMENT
 70
     1
  9
$CELWEIGHT
370
    -1
  9
$ENDCAPS
280
     0
  9
$JOINSTYLE
280
     0
  9
$LWDISPLAY
290
     1
  9
$INSUNITS
 70
     4
  9
$HYPERLINKBASE
  1

  9
$STYLESHEET
  1

  9
$XEDIT
290
     1
  9
$CEPSNTYPE
380
     0
  9
$PSTYLEMODE
290
     1
  9
$FINGERPRINTGUID
  2
{e174ec43-962d-4c86-bdd0-b2c0c7709b8e}
  9
$VERSIONGUID
  2
{FAEB1C32-E019-11D5-929B-00C0DF256EC4}
  9
$EXTNAMES
290
     1
  9
$PSVPSCALE
 40
0.0
  9
$OLESTARTUP
290
     0
  0
ENDSEC
  0
SECTION
  2
CLASSES
  0
CLASS
  1
ACDBDICTIONARYWDFLT
  2
AcDbDictionaryWithDefault
  3
ObjectDBX Classes
 90
        0
280
     0
281
     0
  0
CLASS
  1
VISUALSTYLE
  2
AcDbVisualStyle
  3
ObjectDBX Classes
 90
     4095
280
     0
281
     0
  0
CLASS
  1
MATERIAL
  2
AcDbMaterial
  3
ObjectDBX Classes
 90
     1153
280
     0
281
     0
  0
CLASS
  1
SCALE
  2
AcDbScale
  3
ObjectDBX Classes
 90
     1153
280
     0
281
     0
  0
CLASS
  1
TABLESTYLE
  2
AcDbTableStyle
  3
ObjectDBX Classes
 90
     4095
280
     0
281
     0
  0
CLASS
  1
MLEADERSTYLE
  2
AcDbMLeaderStyle
  3
ACDB_MLEADERSTYLE_CLASS
 90
     4095
280
     0
281
     0
  0
CLASS
  1
SUN
  2
AcDbSun
  3
SCENEOE
 90
     1153
280
     0
281
     0
  0
CLASS
  1
ACDBPLACEHOLDER
  2
AcDbPlaceHolder
  3
ObjectDBX Classes
 90
        0
280
     0
281
     0
  0
CLASS
  1
LAYOUT
  2
AcDbLayout
  3
ObjectDBX Classes
 90
        0
280
     0
281
     0
  0
ENDSEC
  0
SECTION
  2
TABLES
  0
TABLE
  2
VPORT
  5
8
330
0
100
AcDbSymbolTable
 70
     1
  0
VPORT
  5
29
330
8
100
AcDbSymbolTableRecord
100
AcDbViewportTableRecord
  2
*Active
 70
     0
 10
0.0
 20
0.0
 11
1.0
 21
1.0
 12
139.7
 22
107.95
 13
0.0
 23
0.0
 14
10.0
 24
10.0
 15
10.0
 25
10.0
 16
0.0
 26
0.0
 36
1.0
 17
0.0
 27
0.0
 37
0.0
 40
215.9
 41
1.2941176471
 42
50.0
 43
0.0
 44
0.0
 50
0.0
 51
0.0
 71
     0
 72
  2000
 73
     1
 74
     3
 75
     0
 76
     0
 77
     0
 78
     0
281
     0
 65
     1
110
0.0
120
0.0
130
0.0
111
1.0
121
0.0
131
0.0
112
0.0
122
1.0
132
0.0
 79
     0
146
0.0
  0
ENDTAB
  0
TABLE
  2
LTYPE
  5
5
330
0
100
AcDbSymbolTable
 70
     6
  0
LTYPE
  5
14
330
5
100
AcDbSymbolTableRecord
100
AcDbLinetypeTableRecord
  2
ByBlock
 70
     0
  3

 72
    65
 73
     0
 40
0.0
  0
LTYPE
  5
15
330
5
100
AcDbSymbolTableRecord
100
AcDbLinetypeTableRecord
  2
ByLayer
 70
     0
  3

 72
    65
 73
     0
 40
0.0
  0
LTYPE
  5
16
330
5
100
AcDbSymbolTableRecord
100
AcDbLinetypeTableRecord
  2
Continuous
 70
     0
  3
Solid line
 72
    65
 73
     0
 40
0.0
  0
LTYPE
  5
6E
330
5
100
AcDbSymbolTableRecord
100
AcDbLinetypeTableRecord
  2
HIDDEN
 70
     0
  3
Hidden __ __ __ __ __ __ __ __ __ __ __ __ __ __
 72
    65
 73
     2
 40
1.905
 49
1.27
 74
     0
 49
-0.635
 74
     0
  0
LTYPE
  5
6F
330
5
100
AcDbSymbolTableRecord
100
AcDbLinetypeTableRecord
  2
PHANTOM
 70
     0
  3
Phantom ______  __  __  ______  __  __  ______
 72
    65
 73
     6
 40
12.7
 49
6.35
 74
     0
 49
-1.27
 74
     0
 49
1.27
 74
     0
 49
-1.27
 74
     0
 49
1.27
 74
     0
 49
-1.27
 74
     0
  0
LTYPE
  5
70
330
5
100
AcDbSymbolTableRecord
100
AcDbLinetypeTableRecord
  2
CENTER
 70
     0
  3
Center ____ _ ____ _ ____ _ ____ _ ____ _ ____
 72
    65
 73
     4
 40
10.16
 49
6.35
 74
     0
 49
-1.27
 74
     0
 49
1.27
 74
     0
 49
-1.27
 74
     0
  0
LTYPE
  5
71
330
5
100
AcDbSymbolTableRecord
100
AcDbLinetypeTableRecord
  2
CENTERX2
 70
     0
  3
Center (2x) ________  __  ________  __  _____
 72
    65
 73
     4
 40
20.32
 49
12.7
 74
     0
 49
-2.54
 74
     0
 49
2.54
 74
     0
 49
-2.54
 74
     0
  0
LTYPE
  5
72
330
5
100
AcDbSymbolTableRecord
100
AcDbLinetypeTableRecord
  2
DOT2
 70
     0
  3
Dot (.5x) ........................................
 72
    65
 73
     2
 40
0.635
 49
0.0
 74
     0
 49
-0.635
 74
     0
  0
ENDTAB
  0
TABLE
  2
LAYER
  5
2
330
0
100
AcDbSymbolTable
 70
    17
  0
LAYER
  5
10
330
2
100
AcDbSymbolTableRecord
100
AcDbLayerTableRecord
  2
0
 70
     0
 62
     7
  6
Continuous
370
    -3
390
F
  0
LAYER
  5
73
330
2
100
AcDbSymbolTableRecord
100
AcDbLayerTableRecord
  2
FORMAT
 70
     0
 62
     7
  6
Continuous
370
    -3
390
F
  0
LAYER
  5
74
330
2
100
AcDbSymbolTableRecord
100
AcDbLayerTableRecord
  2
YARDIMCI_GEOMETRI
 70
     0
 62
    -6
  6
Continuous
290
     0
370
    -3
390
F
  0
LAYER
  5
75
330
2
100
AcDbSymbolTableRecord
100
AcDbLayerTableRecord
  2
SAYFA_CERCEVESI
 70
     0
 62
     7
  6
Continuous
370
    25
390
F
  0
LAYER
  5
76
330
2
100
AcDbSymbolTableRecord
100
AcDbLayerTableRecord
  2
ANTET
 70
     0
 62
     7
  6
Continuous
370
    -3
390
F
  0
LAYER
  5
77
330
2
100
AcDbSymbolTableRecord
100
AcDbLayerTableRecord
  2
OLCU
 70
     0
 62
   150
  6
Continuous
370
    -3
390
F
  0
LAYER
  5
78
330
2
100
AcDbSymbolTableRecord
100
AcDbLayerTableRecord
  2
METIN
 70
     0
 62
    96
  6
Continuous
370
    -3
390
F
  0
LAYER
  5
79
330
2
100
AcDbSymbolTableRecord
100
AcDbLayerTableRecord
  2
BALON
 70
     0
 62
     5
  6
Continuous
370
    -3
390
F
  0
LAYER
  5
7A
330
2
100
AcDbSymbolTableRecord
100
AcDbLayerTableRecord
  2
VURGU
 70
     0
 62
     7
  6
Continuous
370
    -3
390
F
  0
LAYER
  5
7B
330
2
100
AcDbSymbolTableRecord
100
AcDbLayerTableRecord
  2
SILIK
 70
     0
 62
     7
  6
Continuous
370
    -3
390
F
  0
LAYER
  5
7C
330
2
100
AcDbSymbolTableRecord
100
AcDbLayerTableRecord
  2
MODEL
 70
     0
 62
     7
  6
Continuous
370
    -3
390
F
  0
LAYER
  5
7D
330
2
100
AcDbSymbolTableRecord
100
AcDbLayerTableRecord
  2
DETAYLANDıRMA
 70
     0
 62
   190
  6
Continuous
370
    -3
390
F
  0
LAYER
  5
7E
330
2
100
AcDbSymbolTableRecord
100
AcDbLayerTableRecord
  2
TOLERANS
 70
     0
 62
   230
  6
Continuous
370
    -3
390
F
  0
LAYER
  5
7F
330
2
100
AcDbSymbolTableRecord
100
AcDbLayerTableRecord
  2
MERKEZ_CIZGILERI
 70
     0
 62
    30
  6
Continuous
370
    -3
390
F
  0
LAYER
  5
80
330
2
100
AcDbSymbolTableRecord
100
AcDbLayerTableRecord
  2
KESIT-DETAY_CIZGILERI
 70
     0
 62
     7
  6
Continuous
370
    -3
390
F
  0
LAYER
  5
81
330
2
100
AcDbSymbolTableRecord
100
AcDbLayerTableRecord
  2
\U+041E\U+0421\U+0415\U+0412\U+042B\U+0415
 70
     0
 62
     7
  6
Continuous
370
    -3
390
F
  0
LAYER
  5
82
330
2
100
AcDbSymbolTableRecord
100
AcDbLayerTableRecord
  2
\U+0412\U+041E\U+0414\U+042F\U+041D\U+042B\U+0415_\U+0417\U+041D\U+0410\U+041A\U+0418
 70
     0
 62
    11
  6
Continuous
370
    -3
390
F
  0
ENDTAB
  0
TABLE
  2
STYLE
  5
3
330
0
100
AcDbSymbolTable
 70
     1
  0
STYLE
  5
11
330
3
100
AcDbSymbolTableRecord
100
AcDbTextStyleTableRecord
  2
Standard
 70
     0
 40
0.0
 41
1.0
 50
0.0
 71
     0
 42
3.5
  3
txt
  4

  0
ENDTAB
  0
TABLE
  2
VIEW
  5
6
330
0
100
AcDbSymbolTable
 70
     0
  0
ENDTAB
  0
TABLE
  2
UCS
  5
7
330
0
100
AcDbSymbolTable
 70
     0
  0
ENDTAB
  0
TABLE
  2
APPID
  5
9
330
0
100
AcDbSymbolTable
 70
     1
  0
APPID
  5
12
330
9
100
AcDbSymbolTableRecord
100
AcDbRegAppTableRecord
  2
ACAD
 70
     0
  0
ENDTAB
  0
TABLE
  2
DIMSTYLE
  5
A
330
0
100
AcDbSymbolTable
 70
     1
100
AcDbDimStyleTable
  0
DIMSTYLE
105
27
330
A
100
AcDbSymbolTableRecord
100
AcDbDimStyleTableRecord
  2
ISO-25
 70
     0
 41
2.5
 42
0.625
 43
3.75
 44
1.25
 73
     0
 74
     0
 77
     1
 78
     8
140
2.5
141
2.5
143
0.0393700787
147
0.625
171
     3
172
     1
178
     0
271
     2
272
     2
274
     3
278
    44
283
     0
284
     8
340
11
  0
ENDTAB
  0
TABLE
  2
BLOCK_RECORD
  5
1
330
0
100
AcDbSymbolTable
 70
     2
  0
BLOCK_RECORD
  5
1F
330
1
100
AcDbSymbolTableRecord
100
AcDbBlockTableRecord
  2
*Model_Space
340
22
  0
BLOCK_RECORD
  5
1B
330
1
100
AcDbSymbolTableRecord
100
AcDbBlockTableRecord
  2
*Paper_Space
340
1E
  0
BLOCK_RECORD
  5
23
330
1
100
AcDbSymbolTableRecord
100
AcDbBlockTableRecord
  2
*Paper_Space0
340
26
  0
BLOCK_RECORD
  5
88
330
1
100
AcDbSymbolTableRecord
100
AcDbBlockTableRecord
  2
SW_CENTERMARKSYMBOL_0
340
0
102
{BLKREFS
331
93
102
}
  0
ENDTAB
  0
ENDSEC
  0
SECTION
  2
BLOCKS
  0
BLOCK
  5
20
330
1F
100
AcDbEntity
  8
0
100
AcDbBlockBegin
  2
*Model_Space
 70
     0
 10
0.0
 20
0.0
 30
0.0
  3
*Model_Space
  1

  0
ENDBLK
  5
21
330
1F
100
AcDbEntity
  8
0
100
AcDbBlockEnd
  0
BLOCK
  5
1C
330
1B
100
AcDbEntity
 67
     1
  8
0
100
AcDbBlockBegin
  2
*Paper_Space
 70
     0
 10
0.0
 20
0.0
 30
0.0
  3
*Paper_Space
  1

  0
ENDBLK
  5
1D
330
1B
100
AcDbEntity
 67
     1
  8
0
100
AcDbBlockEnd
  0
BLOCK
  5
24
330
23
100
AcDbEntity
  8
0
100
AcDbBlockBegin
  2
*Paper_Space0
 70
     0
 10
0.0
 20
0.0
 30
0.0
  3
*Paper_Space0
  1

  0
ENDBLK
  5
25
330
23
100
AcDbEntity
  8
0
100
AcDbBlockEnd
  0
BLOCK
  5
89
330
88
100
AcDbEntity
  8
0
100
AcDbBlockBegin
  2
SW_CENTERMARKSYMBOL_0
 70
     0
 10
0.0
 20
0.0
 30
0.0
  3
SW_CENTERMARKSYMBOL_0
  1

  0
LINE
  5
8B
330
88
100
AcDbEntity
  8
FORMAT
 62
     0
100
AcDbLine
 10
0.0
 20
0.0
 30
0.0
 11
0.0
 21
2.5
 31
0.0
  0
LINE
  5
8C
330
88
100
AcDbEntity
  8
FORMAT
 62
     0
100
AcDbLine
 10
0.0
 20
0.0
 30
0.0
 11
-2.5
 21
0.0
 31
0.0
  0
LINE
  5
8D
330
88
100
AcDbEntity
  8
FORMAT
 62
     0
100
AcDbLine
 10
0.0
 20
0.0
 30
0.0
 11
0.0
 21
-2.5
 31
0.0
  0
LINE
  5
8E
330
88
100
AcDbEntity
  8
FORMAT
 62
     0
100
AcDbLine
 10
0.0
 20
0.0
 30
0.0
 11
2.5
 21
0.0
 31
0.0
  0
LINE
  5
8F
330
88
100
AcDbEntity
  8
FORMAT
 62
     0
100
AcDbLine
 10
0.0
 20
5.0
 30
0.0
 11
0.0
 21
47.5
 31
0.0
  0
LINE
  5
90
330
88
100
AcDbEntity
  8
FORMAT
 62
     0
100
AcDbLine
 10
-5.0
 20
0.0
 30
0.0
 11
-47.5
 21
0.0
 31
0.0
  0
LINE
  5
91
330
88
100
AcDbEntity
  8
FORMAT
 62
     0
100
AcDbLine
 10
0.0
 20
-5.0
 30
0.0
 11
0.0
 21
-47.5
 31
0.0
  0
LINE
  5
92
330
88
100
AcDbEntity
  8
FORMAT
 62
     0
100
AcDbLine
 10
5.0
 20
0.0
 30
0.0
 11
47.5
 21
0.0
 31
0.0
  0
ENDBLK
  5
8A
330
88
100
AcDbEntity
  8
0
100
AcDbBlockEnd
  0
ENDSEC
  0
SECTION
  2
ENTITIES
  0
CIRCLE
  5
83
330
1F
100
AcDbEntity
  8
0
  6
Continuous
 62
     7
370
    25
100
AcDbCircle
 10
136.0804557792
 20
118.8813202377
 30
0.0
 40
45.00000000000001
  0
CIRCLE
  5
84
330
1F
100
AcDbEntity
  8
0
  6
Continuous
 62
     7
370
    25
100
AcDbCircle
 10
136.0804557792
 20
118.8813202377
 30
0.0
 40
39.59999999999999
  0
CIRCLE
  5
85
330
1F
100
AcDbEntity
  8
0
  6
Continuous
 62
     7
370
    25
100
AcDbCircle
 10
136.0804557792
 20
118.8813202377
 30
0.0
 40
39.45071250072667
  0
CIRCLE
  5
86
330
1F
100
AcDbEntity
  8
0
  6
Continuous
 62
     7
370
    25
100
AcDbCircle
 10
136.0804557792
 20
118.8813202377
 30
0.0
 40
27.84928749927336
  0
CIRCLE
  5
87
330
1F
100
AcDbEntity
  8
0
  6
Continuous
 62
     7
370
    25
100
AcDbCircle
 10
136.0804557792
 20
118.8813202377
 30
0.0
 40
27.70000000000002
  0
INSERT
  5
93
330
1F
100
AcDbEntity
  8
FORMAT
 62
     7
100
AcDbBlockReference
  2
SW_CENTERMARKSYMBOL_0
 10
136.0804557792
 20
118.8813202377
 30
0.0
  0
LINE
  5
94
330
1F
100
AcDbEntity
  8
0
  6
Continuous
 62
     7
370
    25
100
AcDbLine
 10
-91.7093135369
 20
163.8813220259
 30
0.0
 11
-170.4630996984
 21
163.8813220259
 31
0.0
  0
LINE
  5
95
330
1F
100
AcDbEntity
  8
0
  6
Continuous
 62
     7
370
    25
100
AcDbLine
 10
-170.4630996984
 20
73.8813184496
 30
0.0
 11
-91.7093135369
 21
73.8813184496
 31
0.0
  0
ARC
  5
96
330
1F
100
AcDbEntity
  8
0
  6
Continuous
 62
     7
370
    25
100
AcDbCircle
 10
-91.709314216
 20
161.8813202377
 30
0.0
 40
2.0
100
AcDbArc
 50
75.9637565321
 51
90.0
  0
ARC
  5
97
330
1F
100
AcDbEntity
  8
0
  6
Continuous
 62
     7
370
    25
100
AcDbCircle
 10
-91.709314216
 20
75.8813202377
 30
0.0
 40
2.0
100
AcDbArc
 50
270.0
 51
284.0362434679
  0
LINE
  5
98
330
1F
100
AcDbEntity
  8
0
  6
Continuous
 62
     7
370
    25
100
AcDbLine
 10
-91.2242434871
 20
73.9410348531
 30
0.0
 11
-37.7019621384
 21
87.3216070529
 31
0.0
  0
LINE
  5
99
330
1F
100
AcDbEntity
  8
0
  6
Continuous
 62
     7
370
    25
100
AcDbLine
 10
-37.7019621384
 20
150.4410334225
 30
0.0
 11
-91.2242434871
 21
163.8216056224
 31
0.0
  0
ARC
  5
9A
330
1F
100
AcDbEntity
  8
0
  6
Continuous
 62
     7
370
    25
100
AcDbCircle
 10
-37.2168917135
 20
152.3813202377
 30
0.0
 40
2.000000000000021
100
AcDbArc
 50
255.9637565321
 51
270.0
  0
ARC
  5
9B
330
1F
100
AcDbEntity
  8
0
  6
Continuous
 62
     7
370
    25
100
AcDbCircle
 10
-37.2168917135
 20
85.3813202377
 30
0.0
 40
2.000000000000007
100
AcDbArc
 50
90.0
 51
104.0362434679
  0
LINE
  5
9C
330
1F
100
AcDbEntity
  8
0
  6
Continuous
 62
     7
370
    25
100
AcDbLine
 10
25.5368951756
 20
150.3813207444
 30
0.0
 11
-37.2168920886
 21
150.3813207444
 31
0.0
  0
LINE
  5
9D
330
1F
100
AcDbEntity
  8
0
  6
Continuous
 62
     7
370
    25
100
AcDbLine
 10
-37.2168920886
 20
87.3813197311
 30
0.0
 11
25.5368951756
 21
87.3813197311
 31
0.0
  0
LINE
  5
9E
330
1F
100
AcDbEntity
  8
0
  6
Continuous
 62
     7
370
    25
100
AcDbLine
 10
-170.4630996984
 20
163.8813220259
 30
0.0
 11
-170.4630996984
 21
73.8813184496
 31
0.0
  0
LINE
  5
9F
330
1F
100
AcDbEntity
  8
0
  6
Continuous
 62
     7
370
    25
100
AcDbLine
 10
25.5368951756
 20
150.3813207444
 30
0.0
 11
25.5368951756
 21
87.3813197311
 31
0.0
  0
LINE
  5
A0
330
1F
100
AcDbEntity
  8
0
  6
Continuous
 62
     1
370
    25
100
AcDbLine
 10
-91.7093135369
 20
163.8813220259
 30
0.0
 11
-91.7093135369
 21
73.8813184496
 31
0.0
  0
LINE
  5
A1
330
1F
100
AcDbEntity
  8
0
  6
Continuous
 62
     1
370
    25
100
AcDbLine
 10
-91.2242434871
 20
163.8216056224
 30
0.0
 11
-91.2242434871
 21
73.9410348531
 31
0.0
  0
LINE
  5
A2
330
1F
100
AcDbEntity
  8
0
  6
Continuous
 62
     1
370
    25
100
AcDbLine
 10
-37.7019621384
 20
150.4410334225
 30
0.0
 11
-37.7019621384
 21
87.3216070529
 31
0.0
  0
LINE
  5
A3
330
1F
100
AcDbEntity
  8
0
  6
Continuous
 62
     1
370
    25
100
AcDbLine
 10
-37.2168920886
 20
150.3813207444
 30
0.0
 11
-37.2168920886
 21
87.3813197311
 31
0.0
  0
LINE
  5
A4
330
1F
100
AcDbEntity
  8
0
  6
Continuous
 62
     7
370
    25
100
AcDbLine
 10
181.0804575673
 20
321.1820801487
 30
0.0
 11
181.0804575673
 21
399.9358663102
 31
0.0
  0
LINE
  5
A5
330
1F
100
AcDbEntity
  8
0
  6
Continuous
 62
     7
370
    25
100
AcDbLine
 10
91.080453991
 20
399.9358663102
 30
0.0
 11
91.080453991
 21
321.1820801487
 31
0.0
  0
ARC
  5
A6
330
1F
100
AcDbEntity
  8
0
  6
Continuous
 62
     7
370
    25
100
AcDbCircle
 10
179.0804557792
 20
321.1820808278
 30
0.0
 40
2.0
100
AcDbArc
 50
345.9637565321
 51
0.0
  0
ARC
  5
A7
330
1F
100
AcDbEntity
  8
0
  6
Continuous
 62
     7
370
    25
100
AcDbCircle
 10
93.0804557792
 20
321.1820808278
 30
0.0
 40
2.0
100
AcDbArc
 50
180.0
 51
194.0362434679
  0
LINE
  5
A8
330
1F
100
AcDbEntity
  8
0
  6
Continuous
 62
     7
370
    25
100
AcDbLine
 10
91.1401703945
 20
320.6970100989
 30
0.0
 11
104.5207425944
 21
267.1747287502
 31
0.0
  0
LINE
  5
A9
330
1F
100
AcDbEntity
  8
0
  6
Continuous
 62
     7
370
    25
100
AcDbLine
 10
167.640168964
 20
267.1747287502
 30
0.0
 11
181.0207411638
 21
320.6970100989
 31
0.0
  0
ARC
  5
AA
330
1F
100
AcDbEntity
  8
0
  6
Continuous
 62
     7
370
    25
100
AcDbCircle
 10
169.5804557792
 20
266.6896583253
 30
0.0
 40
2.000000000000024
100
AcDbArc
 50
165.9637565321
 51
180.0
  0
ARC
  5
AB
330
1F
100
AcDbEntity
  8
0
  6
Continuous
 62
     7
370
    25
100
AcDbCircle
 10
102.5804557792
 20
266.6896583253
 30
0.0
 40
2.0
100
AcDbArc
 50
0.0
 51
14.0362434679
  0
LINE
  5
AC
330
1F
100
AcDbEntity
  8
0
  6
Continuous
 62
     7
370
    25
100
AcDbLine
 10
167.5804562858
 20
203.9358714362
 30
0.0
 11
167.5804562858
 21
266.6896587005
 31
0.0
  0
LINE
  5
AD
330
1F
100
AcDbEntity
  8
0
  6
Continuous
 62
     7
370
    25
100
AcDbLine
 10
104.5804552725
 20
266.6896587005
 30
0.0
 11
104.5804552725
 21
203.9358714362
 31
0.0
  0
LINE
  5
AE
330
1F
100
AcDbEntity
  8
0
  6
Continuous
 62
     7
370
    25
100
AcDbLine
 10
181.0804575673
 20
399.9358663102
 30
0.0
 11
91.080453991
 21
399.9358663102
 31
0.0
  0
LINE
  5
AF
330
1F
100
AcDbEntity
  8
0
  6
Continuous
 62
     7
370
    25
100
AcDbLine
 10
167.5804562858
 20
203.9358714362
 30
0.0
 11
104.5804552725
 21
203.9358714362
 31
0.0
  0
LINE
  5
B0
330
1F
100
AcDbEntity
  8
0
  6
Continuous
 62
     1
370
    25
100
AcDbLine
 10
181.0804575673
 20
321.1820801487
 30
0.0
 11
91.080453991
 21
321.1820801487
 31
0.0
  0
LINE
  5
B1
330
1F
100
AcDbEntity
  8
0
  6
Continuous
 62
     1
370
    25
100
AcDbLine
 10
181.0207411638
 20
320.6970100989
 30
0.0
 11
91.1401703945
 21
320.6970100989
 31
0.0
  0
LINE
  5
B2
330
1F
100
AcDbEntity
  8
0
  6
Continuous
 62
     1
370
    25
100
AcDbLine
 10
167.640168964
 20
267.1747287502
 30
0.0
 11
104.5207425944
 21
267.1747287502
 31
0.0
  0
LINE
  5
B3
330
1F
100
AcDbEntity
  8
0
  6
Continuous
 62
     1
370
    25
100
AcDbLine
 10
167.5804562858
 20
266.6896587005
 30
0.0
 11
104.5804552725
 21
266.6896587005
 31
0.0
  0
LINE
  5
B4
330
1F
100
AcDbEntity
  8
0
  6
Continuous
 62
     7
370
    25
100
AcDbLine
 10
372.6348474457
 20
73.8813184496
 30
0.0
 11
451.3886336072
 21
73.8813184496
 31
0.0
  0
LINE
  5
B5
330
1F
100
AcDbEntity
  8
0
  6
Continuous
 62
     7
370
    25
100
AcDbLine
 10
451.3886336072
 20
163.8813220259
 30
0.0
 11
372.6348474457
 21
163.8813220259
 31
0.0
  0
ARC
  5
B6
330
1F
100
AcDbEntity
  8
0
  6
Continuous
 62
     7
370
    25
100
AcDbCircle
 10
372.6348481248
 20
75.8813202377
 30
0.0
 40
2.0
100
AcDbArc
 50
255.9637565321
 51
270.0
  0
ARC
  5
B7
330
1F
100
AcDbEntity
  8
0
  6
Continuous
 62
     7
370
    25
100
AcDbCircle
 10
372.6348481248
 20
161.8813202377
 30
0.0
 40
2.0
100
AcDbArc
 50
90.0
 51
104.0362434679
  0
LINE
  5
B8
330
1F
100
AcDbEntity
  8
0
  6
Continuous
 62
     7
370
    25
100
AcDbLine
 10
372.1497773959
 20
163.8216056224
 30
0.0
 11
318.6274960472
 21
150.4410334225
 31
0.0
  0
LINE
  5
B9
330
1F
100
AcDbEntity
  8
0
  6
Continuous
 62
     7
370
    25
100
AcDbLine
 10
318.6274960472
 20
87.3216070529
 30
0.0
 11
372.1497773959
 21
73.9410348531
 31
0.0
  0
ARC
  5
BA
330
1F
100
AcDbEntity
  8
0
  6
Continuous
 62
     7
370
    25
100
AcDbCircle
 10
318.1424256223
 20
85.3813202377
 30
0.0
 40
2.000000000000011
100
AcDbArc
 50
75.9637565321
 51
90.0
  0
ARC
  5
BB
330
1F
100
AcDbEntity
  8
0
  6
Continuous
 62
     7
370
    25
100
AcDbCircle
 10
318.1424256223
 20
152.3813202377
 30
0.0
 40
2.000000000000024
100
AcDbArc
 50
270.0
 51
284.0362434679
  0
LINE
  5
BC
330
1F
100
AcDbEntity
  8
0
  6
Continuous
 62
     7
370
    25
100
AcDbLine
 10
255.3886387332
 20
87.3813197311
 30
0.0
 11
318.1424259974
 21
87.3813197311
 31
0.0
  0
LINE
  5
BD
330
1F
100
AcDbEntity
  8
0
  6
Continuous
 62
     7
370
    25
100
AcDbLine
 10
318.1424259974
 20
150.3813207444
 30
0.0
 11
255.3886387332
 21
150.3813207444
 31
0.0
  0
LINE
  5
BE
330
1F
100
AcDbEntity
  8
0
  6
Continuous
 62
     7
370
    25
100
AcDbLine
 10
451.3886336072
 20
118.8813202377
 30
0.0
 11
451.3886336072
 21
163.8813220259
 31
0.0
  0
LINE
  5
BF
330
1F
100
AcDbEntity
  8
0
  6
Continuous
 62
     7
370
    25
100
AcDbLine
 10
451.3886336072
 20
73.8813184496
 30
0.0
 11
451.3886336072
 21
118.8813202377
 31
0.0
  0
LINE
  5
C0
330
1F
100
AcDbEntity
  8
0
  6
Continuous
 62
     7
370
    25
100
AcDbLine
 10
255.3886387332
 20
118.8813202377
 30
0.0
 11
255.3886387332
 21
150.3813207444
 31
0.0
  0
LINE
  5
C1
330
1F
100
AcDbEntity
  8
0
  6
Continuous
 62
     7
370
    25
100
AcDbLine
 10
255.3886387332
 20
87.3813197311
 30
0.0
 11
255.3886387332
 21
118.8813202377
 31
0.0
  0
LINE
  5
C2
330
1F
100
AcDbEntity
  8
0
  6
Continuous
 62
     1
370
    25
100
AcDbLine
 10
372.6348474457
 20
118.8813202377
 30
0.0
 11
372.6348474457
 21
163.8813220259
 31
0.0
  0
LINE
  5
C3
330
1F
100
AcDbEntity
  8
0
  6
Continuous
 62
     1
370
    25
100
AcDbLine
 10
372.6348474457
 20
73.8813184496
 30
0.0
 11
372.6348474457
 21
118.8813202377
 31
0.0
  0
LINE
  5
C4
330
1F
100
AcDbEntity
  8
0
  6
Continuous
 62
     1
370
    25
100
AcDbLine
 10
372.1497773959
 20
118.8813202377
 30
0.0
 11
372.1497773959
 21
163.8216056224
 31
0.0
  0
LINE
  5
C5
330
1F
100
AcDbEntity
  8
0
  6
Continuous
 62
     1
370
    25
100
AcDbLine
 10
372.1497773959
 20
73.9410348531
 30
0.0
 11
372.1497773959
 21
118.8813202377
 31
0.0
  0
LINE
  5
C6
330
1F
100
AcDbEntity
  8
0
  6
Continuous
 62
     1
370
    25
100
AcDbLine
 10
318.6274960472
 20
118.8813202377
 30
0.0
 11
318.6274960472
 21
150.4410334225
 31
0.0
  0
LINE
  5
C7
330
1F
100
AcDbEntity
  8
0
  6
Continuous
 62
     1
370
    25
100
AcDbLine
 10
318.6274960472
 20
87.3216070529
 30
0.0
 11
318.6274960472
 21
118.8813202377
 31
0.0
  0
LINE
  5
C8
330
1F
100
AcDbEntity
  8
0
  6
Continuous
 62
     1
370
    25
100
AcDbLine
 10
318.1424259974
 20
118.8813202377
 30
0.0
 11
318.1424259974
 21
150.3813207444
 31
0.0
  0
LINE
  5
C9
330
1F
100
AcDbEntity
  8
0
  6
Continuous
 62
     1
370
    25
100
AcDbLine
 10
318.1424259974
 20
87.3813197311
 30
0.0
 11
318.1424259974
 21
118.8813202377
 31
0.0
  0
LINE
  5
CA
330
1F
100
AcDbEntity
  8
0
  6
Continuous
 62
     7
370
    25
100
AcDbLine
 10
91.080453991
 20
-99.9995495425
 30
0.0
 11
91.080453991
 21
-178.753335704
 31
0.0
  0
LINE
  5
CB
330
1F
100
AcDbEntity
  8
0
  6
Continuous
 62
     7
370
    25
100
AcDbLine
 10
181.0804575673
 20
-178.753335704
 30
0.0
 11
181.0804575673
 21
-99.9995495425
 31
0.0
  0
ARC
  5
CC
330
1F
100
AcDbEntity
  8
0
  6
Continuous
 62
     7
370
    25
100
AcDbCircle
 10
93.0804557792
 20
-99.9995502216
 30
0.0
 40
2.0
100
AcDbArc
 50
165.9637565321
 51
180.0
  0
ARC
  5
CD
330
1F
100
AcDbEntity
  8
0
  6
Continuous
 62
     7
370
    25
100
AcDbCircle
 10
179.0804557792
 20
-99.9995502216
 30
0.0
 40
2.0
100
AcDbArc
 50
0.0
 51
14.0362434679
  0
LINE
  5
CE
330
1F
100
AcDbEntity
  8
0
  6
Continuous
 62
     7
370
    25
100
AcDbLine
 10
181.0207411638
 20
-99.5144794927
 30
0.0
 11
167.640168964
 21
-45.992198144
 31
0.0
  0
LINE
  5
CF
330
1F
100
AcDbEntity
  8
0
  6
Continuous
 62
     7
370
    25
100
AcDbLine
 10
104.5207425944
 20
-45.992198144
 30
0.0
 11
91.1401703945
 21
-99.5144794927
 31
0.0
  0
ARC
  5
D0
330
1F
100
AcDbEntity
  8
0
  6
Continuous
 62
     7
370
    25
100
AcDbCircle
 10
102.5804557792
 20
-45.5071277191
 30
0.0
 40
2.0
100
AcDbArc
 50
345.9637565321
 51
0.0
  0
ARC
  5
D1
330
1F
100
AcDbEntity
  8
0
  6
Continuous
 62
     7
370
    25
100
AcDbCircle
 10
169.5804557792
 20
-45.5071277191
 30
0.0
 40
2.000000000000023
100
AcDbArc
 50
180.0
 51
194.0362434679
  0
LINE
  5
D2
330
1F
100
AcDbEntity
  8
0
  6
Continuous
 62
     7
370
    25
100
AcDbLine
 10
104.5804552725
 20
17.24665917
 30
0.0
 11
104.5804552725
 21
-45.5071280943
 31
0.0
  0
LINE
  5
D3
330
1F
100
AcDbEntity
  8
0
  6
Continuous
 62
     7
370
    25
100
AcDbLine
 10
167.5804562858
 20
-45.5071280943
 30
0.0
 11
167.5804562858
 21
17.24665917
 31
0.0
  0
LINE
  5
D4
330
1F
100
AcDbEntity
  8
0
  6
Continuous
 62
     7
370
    25
100
AcDbLine
 10
91.080453991
 20
-178.753335704
 30
0.0
 11
181.0804575673
 21
-178.753335704
 31
0.0
  0
LINE
  5
D5
330
1F
100
AcDbEntity
  8
0
  6
Continuous
 62
     7
370
    25
100
AcDbLine
 10
104.5804552725
 20
17.24665917
 30
0.0
 11
167.5804562858
 21
17.24665917
 31
0.0
  0
LINE
  5
D6
330
1F
100
AcDbEntity
  8
0
  6
Continuous
 62
     1
370
    25
100
AcDbLine
 10
91.080453991
 20
-99.9995495425
 30
0.0
 11
181.0804575673
 21
-99.9995495425
 31
0.0
  0
LINE
  5
D7
330
1F
100
AcDbEntity
  8
0
  6
Continuous
 62
     1
370
    25
100
AcDbLine
 10
91.1401703945
 20
-99.5144794927
 30
0.0
 11
181.0207411638
 21
-99.5144794927
 31
0.0
  0
LINE
  5
D8
330
1F
100
AcDbEntity
  8
0
  6
Continuous
 62
     1
370
    25
100
AcDbLine
 10
104.5207425944
 20
-45.992198144
 30
0.0
 11
167.640168964
 21
-45.992198144
 31
0.0
  0
LINE
  5
D9
330
1F
100
AcDbEntity
  8
0
  6
Continuous
 62
     1
370
    25
100
AcDbLine
 10
104.5804552725
 20
-45.5071280943
 30
0.0
 11
167.5804562858
 21
-45.5071280943
 31
0.0
  0
LINE
  5
DA
330
1F
100
AcDbEntity
  8
0
  6
Continuous
 62
     7
370
    25
100
AcDbLine
 10
347.694311402
 20
-16.0159036417
 30
0.0
 11
292.0069751631
 21
16.1317112878
 31
0.0
  0
LINE
  5
DB
330
1F
100
AcDbEntity
  8
0
  6
Continuous
 62
     7
370
    25
100
AcDbLine
 10
247.0106309079
 20
-61.8126870682
 30
0.0
 11
302.6979671468
 21
-93.9603019977
 31
0.0
  0
SPLINE
  5
DC
330
1F
100
AcDbEntity
  8
0
  6
Continuous
 62
     7
370
    25
100
AcDbSpline
210
0.0
220
0.0
230
1.0
 70
     8
 71
     3
 72
    11
 73
     7
 74
     0
 42
0.000000001
 43
0.00000001
 40
0.0
 40
0.0
 40
0.0
 40
0.0
 40
0.1597941377309968
 40
0.488390782551762
 40
0.8153340290303709
 40
0.9999999999999999
 40
0.9999999999999999
 40
0.9999999999999999
 40
0.9999999999999999
 10
351.5247618744573
 20
-19.08920964447341
 30
0.0
 10
351.3519296231793
 20
-18.8993463710141
 30
0.0
 10
350.8236894783881
 20
-18.31905303848433
 30
0.0
 10
349.8431508410497
 20
-17.47688289805025
 30
0.0
 10
348.788768984555
 20
-16.67212746656847
 30
0.0
 10
348.0933742309991
 20
-16.26864541521263
 30
0.0
 10
347.8423706466363
 20
-16.12300807671025
 30
0.0
  0
SPLINE
  5
DD
330
1F
100
AcDbEntity
  8
0
  6
Continuous
 62
     7
370
    25
100
AcDbSpline
210
0.0
220
0.0
230
1.0
 70
     8
 71
     3
 72
    11
 73
     7
 74
     0
 42
0.000000001
 43
0.00000001
 40
0.0
 40
0.0
 40
0.0
 40
0.0
 40
0.1614438906381004
 40
0.4834690184787377
 40
0.8056843944396838
 40
1.0
 40
1.0
 40
1.0
 40
1.0
 10
302.8155199756936
 20
-94.00679694812328
 30
0.0
 10
303.0366793728993
 20
-94.13632183536434
 30
0.0
 10
303.6989758294067
 20
-94.52420439849816
 30
0.0
 10
304.8798908679089
 20
-95.0294314837678
 30
0.0
 10
306.1426070720229
 20
-95.48362815638897
 30
0.0
 10
306.9590584427485
 20
-95.66964344549837
 30
0.0
 10
307.2662021537527
 20
-95.73962119095772
 30
0.0
  0
LINE
  5
DE
330
1F
100
AcDbEntity
  8
0
  6
Continuous
 62
     7
370
    25
100
AcDbLine
 10
307.3975738806
 20
-95.7870055267
 30
0.0
 11
350.6450307055
 21
-105.5464636025
 31
0.0
  0
LINE
  5
DF
330
1F
100
AcDbEntity
  8
0
  6
Continuous
 62
     7
370
    25
100
AcDbLine
 10
381.7051059346
 20
-51.7430056682
 30
0.0
 11
351.6263831946
 21
-19.1721611694
 31
0.0
  0
LINE
  5
E0
330
1F
100
AcDbEntity
  8
0
  6
Continuous
 62
     7
370
    25
100
AcDbLine
 10
423.8504490127
 20
-75.567941636
 30
0.0
 11
380.7061189406
 21
-50.6612500392
 31
0.0
  0
LINE
  5
E1
330
1F
100
AcDbEntity
  8
0
  6
Continuous
 62
     7
370
    25
100
AcDbLine
 10
349.208677962
 20
-105.22232828
 30
0.0
 11
392.3530080341
 21
-130.1290198768
 31
0.0
  0
LWPOLYLINE
  5
E2
330
1F
100
AcDbEntity
  8
0
  6
Continuous
 62
     7
370
    25
100
AcDbPolyline
 90
      106
 70
   128
 43
0.0
 10
237.6889966177
 20
-41.2096711361
 10
237.7459501809
 20
-38.979328555
 10
237.9166080389
 20
-36.6912121098
 10
238.2003564281
 20
-34.3535149702
 10
238.5961785559
 20
-31.9746051745
 10
239.1026625028
 20
-29.5629959721
 10
239.717990686
 20
-27.1273222487
 10
240.4399635668
 20
-24.6763040259
 10
241.2659970166
 20
-22.2187114797
 10
242.1931302193
 20
-19.7633459298
 10
243.2180467446
 20
-17.318996495
 10
244.3370771827
 20
-14.8944127173
 10
245.5462149488
 20
-12.4982741439
 10
246.8411347224
 20
-10.1391553486
 10
248.2171977162
 20
-7.8255061598
 10
249.6694793342
 20
-5.5656067958
 10
251.192779709
 20
-3.3675480939
 10
252.7816474093
 20
-1.2391950102
 10
254.4303939274
 20
0.8118308695
 10
256.1331173876
 20
2.7781863089
 10
257.8837223019
 20
4.6528330353
 10
259.6759426193
 20
6.4290632134
 10
261.5033614821
 20
8.1005138918
 10
263.3594375678
 20
9.6612065448
 10
265.2375268206
 20
11.1055474505
 10
267.1309059953
 20
12.4283747425
 10
269.0327975985
 20
13.6249454318
 10
270.9363931857
 20
14.6909792739
 10
272.8348782205
 20
15.6226609531
 10
274.7214570999
 20
16.4166545285
 10
276.5893761207
 20
17.0701197346
 10
278.4319480927
 20
17.5807140226
 10
280.2425773632
 20
17.9466100487
 10
282.0147831959
 20
18.1665000446
 10
283.7422205144
 20
18.2395925837
 10
285.4187062444
 20
18.1656338711
 10
287.038237094
 20
17.9448784649
 10
288.5950191887
 20
17.5781276762
 10
290.0834759736
 20
17.0666854615
 10
291.4982824579
 20
16.4123873175
 10
292.8343704829
 20
15.6175713827
 10
294.0869590156
 20
14.6850867998
 10
295.251566002
 20
13.6182716608
 10
296.3240189041
 20
12.4209423601
 10
297.3004823588
 20
11.0973882684
 10
298.1774581775
 20
9.6523443557
 10
298.9518064201
 20
8.0909835854
 10
299.6207559313
 20
6.4188971406
 10
300.1819122433
 20
4.642068568
 10
300.6332681124
 20
2.766860849
 10
300.9732061532
 20
0.79998446
 10
301.2005120098
 20
-1.2515166977
 10
301.3143664527
 20
-3.3803030346
 10
301.3143664527
 20
-5.5787508724
 10
301.2005120098
 20
-7.838990751
 10
300.9732061532
 20
-10.1529336644
 10
300.6332681124
 20
-12.5122941612
 10
300.1819122433
 20
-14.9086262742
 10
299.6207559313
 20
-17.3333521336
 10
298.9518064201
 20
-19.7777912441
 10
298.1774581775
 20
-22.2331954651
 10
297.3004823588
 20
-24.6907741057
 10
296.3240189041
 20
-27.1417289048
 10
295.251566002
 20
-29.5772859698
 10
294.0869590156
 20
-31.9887277141
 10
292.8343704829
 20
-34.3674202335
 10
291.4982824579
 20
-36.7048505665
 10
290.0834759736
 20
-38.9926495072
 10
288.5950191887
 20
-41.2226273456
 10
287.038237094
 20
-43.3868004818
 10
285.4187062444
 20
-45.4774264056
 10
283.7422205144
 20
-47.4870143409
 10
282.0147831959
 20
-49.4083784766
 10
280.2425773632
 20
-51.2346337817
 10
278.4319480927
 20
-52.9592458137
 10
276.5893761207
 20
-54.5760398418
 10
274.7214570999
 20
-56.0792280314
 10
272.8348782205
 20
-57.4634320659
 10
270.9363931857
 20
-58.7236945511
 10
269.0327975985
 20
-59.8555053915
 10
267.1309059953
 20
-60.8548120068
 10
265.2375268206
 20
-61.7180337784
 10
263.3594375678
 20
-62.4420885685
 10
261.5033614821
 20
-63.0243757493
 10
259.6759426193
 20
-63.4628179796
 10
257.8837223019
 20
-63.7558413347
 10
256.1331173876
 20
-63.9024000197
 10
254.4303939274
 20
-63.9019672417
 10
252.7816474093
 20
-63.7545435726
 10
251.192779709
 20
-63.4606580878
 10
249.6694793342
 20
-63.0213645623
 10
248.2171977162
 20
-62.4382338634
 10
246.8411347224
 20
-61.7133531893
 10
245.5462149488
 20
-60.849316941
 10
244.3370771827
 20
-59.8492191167
 10
243.2180467446
 20
-58.7166403816
 10
242.1931302193
 20
-57.455634379
 10
241.2659970166
 20
-56.0707140398
 10
240.4399635668
 20
-54.5668394142
 10
239.717990686
 20
-52.9493933365
 10
239.1026625028
 20
-51.2241624112
 10
238.5961785559
 20
-49.3973271267
 10
238.2003564281
 20
-47.475423832
 10
237.9166080389
 20
-45.4653356093
 10
237.7459501809
 20
-43.3742565329
 10
237.6889966177
 20
-41.2096711361
  0
LWPOLYLINE
  5
E3
330
1F
100
AcDbEntity
  8
0
  6
Continuous
 62
     7
370
    25
100
AcDbPolyline
 90
       99
 70
   128
 43
0.0
 10
241.5073746522
 20
-39.0053684167
 10
241.5649077346
 20
-36.9004437113
 10
241.7372646374
 20
-34.7377456272
 10
242.0237446693
 20
-32.5261570657
 10
242.4231650843
 20
-30.2747684891
 10
242.9338874236
 20
-27.9928307747
 10
243.5538096133
 20
-25.6897221341
 10
244.2803870373
 20
-23.3749040076
 10
245.110635172
 20
-21.0578910269
 10
246.0411401225
 20
-18.7482015858
 10
247.0680770624
 20
-16.455328944
 10
248.1872286727
 20
-14.188694841
 10
249.3939956785
 20
-11.9576129947
 10
250.6834179226
 20
-9.7712510804
 10
252.050198073
 20
-7.6385927096
 10
253.4887187449
 20
-5.568403211
 10
254.9930701601
 20
-3.5691878073
 10
256.5570699026
 20
-1.6491604388
 10
258.1742905781
 20
0.1837828512
 10
259.838088131
 20
1.9221198068
 10
261.5416242351
 20
3.5586996766
 10
263.277899221
 20
5.0867987244
 10
265.039778088
 20
6.5001382875
 10
266.8200211271
 20
7.7929115802
 10
268.6113130614
 20
8.9598066001
 10
270.4062930096
 20
9.9960264676
 10
272.1975849438
 20
10.8973130926
 10
273.977827983
 20
11.6599646619
 10
275.73970685
 20
12.2808471391
 10
277.4759818358
 20
12.7574085195
 10
279.1795179399
 20
13.0876895696
 10
280.8433154928
 20
13.2703323794
 10
282.4605361683
 20
13.3045923368
 10
284.0245359108
 20
13.1903206344
 10
285.528887326
 20
12.927992404
 10
286.967407998
 20
12.5186835204
 10
288.3341881483
 20
11.9640759214
 10
289.6236103924
 20
11.2664492416
 10
290.8303773982
 20
10.4286709229
 10
291.9495290085
 20
9.4541817651
 10
292.9764659485
 20
8.3469852763
 10
293.906970899
 20
7.1116339831
 10
294.7372190336
 20
5.7532050946
 10
295.4637964576
 20
4.2772754057
 10
296.0837186473
 20
2.6899136901
 10
296.5944409867
 20
0.9976434374
 10
296.9938614017
 20
-0.7925841442
 10
297.2803414335
 20
-2.6734099014
 10
297.4526983363
 20
-4.6371089414
 10
297.5102314187
 20
-6.6756073637
 10
297.4526983363
 20
-8.7805320691
 10
297.2803414335
 20
-10.9432301532
 10
296.9938614017
 20
-13.1548187148
 10
296.5944409867
 20
-15.4062072914
 10
296.0837186473
 20
-17.6881450057
 10
295.4637964576
 20
-19.9912536463
 10
294.7372190336
 20
-22.3060717728
 10
293.906970899
 20
-24.6230847535
 10
292.9764659485
 20
-26.9327741946
 10
291.9495290085
 20
-29.2256468365
 10
290.8303773982
 20
-31.4922809395
 10
289.6236103924
 20
-33.7233627857
 10
288.3341881483
 20
-35.9097247
 10
286.967407998
 20
-38.0423830708
 10
285.528887326
 20
-40.1125725695
 10
284.0245359108
 20
-42.1117879731
 10
282.4605361683
 20
-44.0318153417
 10
280.8433154928
 20
-45.8647586316
 10
279.1795179399
 20
-47.6030955872
 10
277.4759818358
 20
-49.239675457
 10
275.73970685
 20
-50.7677745049
 10
273.977827983
 20
-52.181114068
 10
272.1975849438
 20
-53.4738873606
 10
270.4062930096
 20
-54.6407823805
 10
268.6113130614
 20
-55.677002248
 10
266.8200211271
 20
-56.578288873
 10
265.039778088
 20
-57.3409404424
 10
263.277899221
 20
-57.9618229195
 10
261.5416242351
 20
-58.4383842999
 10
259.838088131
 20
-58.76866535
 10
258.1742905781
 20
-58.9513081598
 10
256.5570699026
 20
-58.9855681173
 10
254.9930701601
 20
-58.8712964148
 10
253.4887187449
 20
-58.6089681845
 10
252.050198073
 20
-58.1996593008
 10
250.6834179226
 20
-57.6450517019
 10
249.3939956785
 20
-56.947425022
 10
248.1872286727
 20
-56.1096467034
 10
247.0680770624
 20
-55.1351575455
 10
246.0411401225
 20
-54.0279610567
 10
245.110635172
 20
-52.7926097635
 10
244.2803870373
 20
-51.4341808751
 10
243.5538096133
 20
-49.9582511861
 10
242.9338874236
 20
-48.3708894705
 10
242.4231650843
 20
-46.6786192178
 10
242.0237446693
 20
-44.8883916363
 10
241.7372646374
 20
-43.007565879
 10
241.5649077346
 20
-41.0438668391
 10
241.5073746522
 20
-39.0053684167
  0
LINE
  5
E4
330
1F
100
AcDbEntity
  8
0
  6
Continuous
 62
     7
370
    25
100
AcDbLine
 10
347.694311402
 20
-16.0159036417
 30
0.0
 11
347.8384457214
 21
-16.1001840593
 31
0.0
  0
LINE
  5
E5
330
1F
100
AcDbEntity
  8
0
  6
Continuous
 62
     7
370
    25
100
AcDbLine
 10
302.7975680524
 20
-94.017292828
 30
0.0
 11
302.6979671468
 21
-93.9603019977
 31
0.0
  0
LINE
  5
E6
330
1F
100
AcDbEntity
  8
0
  6
Continuous
 62
     7
370
    25
100
AcDbLine
 10
351.5426031623
 20
-19.0821190645
 30
0.0
 11
351.6263831946
 21
-19.1721611694
 31
0.0
  0
LINE
  5
E7
330
1F
100
AcDbEntity
  8
0
  6
Continuous
 62
     7
370
    25
100
AcDbLine
 10
307.3975738806
 20
-95.7870055267
 30
0.0
 11
307.269949272
 21
-95.7576693417
 31
0.0
  0
LINE
  5
E8
330
1F
100
AcDbEntity
  8
0
  6
Continuous
 62
     7
370
    25
100
AcDbLine
 10
381.7051059346
 20
-51.7430056682
 30
0.0
 11
381.763616297
 21
-51.8068428926
 31
0.0
  0
LWPOLYLINE
  5
E9
330
1F
100
AcDbEntity
  8
0
  6
Continuous
 62
     7
370
    25
100
AcDbPolyline
 90
       46
 70
   128
 43
0.0
 10
423.8504490127
 20
-75.567941636
 10
423.8517279061
 20
-75.5686816864
 10
424.9351916725
 20
-76.2870329473
 10
425.9328747483
 20
-77.1407362723
 10
426.839694487
 20
-78.1254420974
 10
427.6510305405
 20
-79.2361286524
 10
428.3627472491
 20
-80.4671392263
 10
428.9712186669
 20
-81.8121996601
 10
429.4733443663
 20
-83.2644563712
 10
429.8665639261
 20
-84.8165094353
 10
430.1488766884
 20
-86.4604479493
 10
430.3188417575
 20
-88.1878966101
 10
430.375592489
 20
-89.9900527884
 10
430.3188417575
 20
-91.8577319665
 10
430.1488766884
 20
-93.7814181192
 10
429.8665639261
 20
-95.7513080104
 10
429.4733443663
 20
-97.7573627146
 10
428.9712186669
 20
-99.789361418
 10
428.3627472491
 20
-101.8369479971
 10
427.6510305405
 20
-103.8896891918
 10
426.839694487
 20
-105.9371244149
 10
425.9328747483
 20
-107.9688220244
 10
424.9351916725
 20
-109.9744257099
 10
423.8517279061
 20
-111.9437176084
 10
422.6880073206
 20
-113.8666631698
 10
421.4499581336
 20
-115.7334613443
 10
420.1438878844
 20
-117.5346016143
 10
418.7764551164
 20
-119.2609046768
 10
417.3546259135
 20
-120.9035733902
 10
415.885646241
 20
-122.4542376393
 10
414.3770011156
 20
-123.9049961564
 10
412.8363787153
 20
-125.2484539713
 10
411.2716298784
 20
-126.4777686051
 10
409.6907277679
 20
-127.586673356
 10
408.1017285234
 20
-128.5695167445
 10
406.5127292789
 20
-129.4212928327
 10
404.9318271684
 20
-130.1376588066
 10
403.3670783315
 20
-130.7149647249
 10
401.8264559312
 20
-131.1502716714
 10
400.3178108059
 20
-131.4413577398
 10
398.8488311333
 20
-131.5867413192
 10
397.4270019304
 20
-131.5856816608
 10
396.0595691625
 20
-131.4381828664
 10
394.7534989132
 20
-131.1449992084
 10
393.5154497262
 20
-130.7076221992
 10
392.3530080341
 20
-130.1290198768
  0
LWPOLYLINE
  5
EA
330
1F
100
AcDbEntity
  8
0
  6
Continuous
 62
     1
370
    25
100
AcDbPolyline
 90
       54
 70
   128
 43
0.0
 10
347.8384457214
 20
-16.1001840593
 10
348.5217067218
 20
-16.5300435468
 10
349.7742952545
 20
-17.4625281298
 10
350.9389022409
 20
-18.5293432687
 10
352.011355143
 20
-19.7266725694
 10
352.9878185977
 20
-21.0502266611
 10
353.8647944165
 20
-22.4952705738
 10
354.6391426591
 20
-24.0566313441
 10
355.3080921703
 20
-25.7287177889
 10
355.8692484822
 20
-27.5055463615
 10
356.3206043513
 20
-29.3807540805
 10
356.6605423921
 20
-31.3476304695
 10
356.8878482487
 20
-33.3991316272
 10
357.0017026916
 20
-35.5279179641
 10
357.0017026916
 20
-37.7263658019
 10
356.8878482487
 20
-39.9866056805
 10
356.6605423921
 20
-42.300548594
 10
356.3206043513
 20
-44.6599090907
 10
355.8692484822
 20
-47.0562412037
 10
355.3080921703
 20
-49.4809670632
 10
354.6391426591
 20
-51.9254061736
 10
353.8647944165
 20
-54.3808103946
 10
352.9878185977
 20
-56.8383890352
 10
352.011355143
 20
-59.2893438343
 10
350.9389022409
 20
-61.7249008994
 10
349.7742952545
 20
-64.1363426437
 10
348.5217067218
 20
-66.5150351631
 10
347.1856186968
 20
-68.852465496
 10
345.7708122126
 20
-71.1402644367
 10
344.2823554276
 20
-73.3702422752
 10
342.7255733329
 20
-75.5344154113
 10
341.1060424833
 20
-77.6250413351
 10
339.4295567534
 20
-79.6346292704
 10
337.7021194349
 20
-81.5559934061
 10
335.9299136022
 20
-83.3822487112
 10
334.1192843316
 20
-85.1068607432
 10
332.2767123597
 20
-86.7236547713
 10
330.4087933389
 20
-88.2268429609
 10
328.5222144595
 20
-89.6110469954
 10
326.6237294246
 20
-90.8713094806
 10
324.7201338375
 20
-92.003120321
 10
322.8182422342
 20
-93.0024269363
 10
320.9248630596
 20
-93.865648708
 10
319.0467738067
 20
-94.589703498
 10
317.1906977211
 20
-95.1719906788
 10
315.3632788583
 20
-95.6104329091
 10
313.5710585409
 20
-95.9034562642
 10
311.8204536266
 20
-96.0500149493
 10
310.1177301664
 20
-96.0495821712
 10
308.4689836482
 20
-95.9021585021
 10
306.880115948
 20
-95.6082730173
 10
305.3568155731
 20
-95.1689794918
 10
303.9045339551
 20
-94.585848793
 10
302.7975680524
 20
-94.017292828
  0
LWPOLYLINE
  5
EB
330
1F
100
AcDbEntity
  8
0
  6
Continuous
 62
     1
370
    25
100
AcDbPolyline
 90
       48
 70
   128
 43
0.0
 10
351.6263831946
 20
-19.1721611694
 10
352.3187689877
 20
-19.9714711158
 10
353.2939337926
 20
-21.2932699374
 10
354.1697453047
 20
-22.7363973743
 10
354.9430662179
 20
-24.2956850264
 10
355.6111306453
 20
-25.9655523574
 10
356.1715414848
 20
-27.7400234251
 10
356.6222993955
 20
-29.6127420929
 10
356.9617869919
 20
-31.5770077706
 10
357.188789918
 20
-33.6257875834
 10
357.3024942127
 20
-35.7517485014
 10
357.3024942127
 20
-37.9472790134
 10
357.188789918
 20
-40.2045201158
 10
356.9617869919
 20
-42.5153919282
 10
356.6222993955
 20
-44.8716216416
 10
356.1715414848
 20
-47.2647743153
 10
355.6111306453
 20
-49.6862819657
 10
354.9430662179
 20
-52.1274800664
 10
354.1697453047
 20
-54.5796250399
 10
353.2939337926
 20
-57.0339429248
 10
352.3187689877
 20
-59.4816430646
 10
351.2477385417
 20
-61.9139682958
 10
350.0846778178
 20
-64.3222101574
 10
348.8337514515
 20
-66.6977453908
 10
347.4994349112
 20
-69.032072441
 10
346.0865065959
 20
-71.3168373109
 10
344.6000241274
 20
-73.5438563735
 10
343.0453085454
 20
-75.7051574352
 10
341.4279258679
 20
-77.7930101525
 10
339.7536647013
 20
-79.7999328741
 10
338.0285204348
 20
-81.718744351
 10
336.2586662645
 20
-83.5425774222
 10
334.4504393643
 20
-85.2648991654
 10
332.6103125682
 20
-86.8795485373
 10
330.7448723089
 20
-88.3807430258
 10
328.8607972157
 20
-89.7631092565
 10
326.9648312783
 20
-91.0217015263
 10
325.0637618267
 20
-92.1520084319
 10
323.1643939718
 20
-93.1499889178
 10
321.2735271444
 20
-94.0120675693
 10
319.3979301532
 20
-94.7351581361
 10
317.5443170241
 20
-95.3166744387
 10
315.7193235807
 20
-95.7545347622
 10
313.9294819261
 20
-96.0471705044
 10
312.1812003568
 20
-96.1935316871
 10
310.4807357042
 20
-96.1930998815
 10
308.8341768709
 20
-96.0458733776
 10
307.3975738806
 20
-95.7870055267
  0
LWPOLYLINE
  5
EC
330
1F
100
AcDbEntity
  8
0
  6
Continuous
 62
     1
370
    25
100
AcDbPolyline
 90
       41
 70
   128
 43
0.0
 10
381.763616297
 20
-51.8068428926
 10
382.1585915366
 20
-52.264215493
 10
382.97146595
 20
-53.3770079141
 10
383.6845313578
 20
-54.6103524752
 10
384.2941565455
 20
-55.9579628493
 10
384.7972331832
 20
-57.4129732858
 10
385.1911995325
 20
-58.9679675101
 10
385.4740470329
 20
-60.6150228315
 10
385.6443321547
 20
-62.3457474063
 10
385.7011908875
 20
-64.1513197842
 10
385.6443321547
 20
-66.0225398575
 10
385.4740470329
 20
-67.9498714491
 10
385.1911995325
 20
-69.9234955432
 10
384.7972331832
 20
-71.9333536325
 10
384.2941565455
 20
-73.9692039912
 10
383.6845313578
 20
-76.0206726251
 10
382.97146595
 20
-78.0773049818
 10
382.1585915366
 20
-80.1286222236
 10
381.2500529966
 20
-82.1641698955
 10
380.250478581
 20
-84.173575718
 10
379.1649614729
 20
-86.1466020571
 10
377.9990334462
 20
-88.0731930705
 10
376.7586372066
 20
-89.943530219
 10
375.4500921471
 20
-91.7480839747
 10
374.0800666894
 20
-93.4776602064
 10
372.6555420638
 20
-95.1234423823
 10
371.1837774065
 20
-96.6770466998
 10
369.6722722224
 20
-98.1305544021
 10
368.1287295065
 20
-99.4765604442
 10
366.5610142558
 20
-100.7082050481
 10
364.9771152739
 20
-101.819209441
 10
363.3851036822
 20
-102.8039165364
 10
361.7930920905
 20
-103.6573068998
 10
360.2091931086
 20
-104.3750333458
 10
358.6414778579
 20
-104.9534342424
 10
357.097935142
 20
-105.3895646863
 10
355.5864299578
 20
-105.6812037231
 10
354.1146653006
 20
-105.826862709
 10
352.690140675
 20
-105.8258016569
 10
351.3201152173
 20
-105.6780231491
 10
350.6450307055
 20
-105.5464636025
  0
LWPOLYLINE
  5
ED
330
1F
100
AcDbEntity
  8
0
  6
Continuous
 62
     1
370
    25
100
AcDbPolyline
 90
       43
 70
   128
 43
0.0
 10
381.182972336
 20
-51.1776128623
 10
381.5592462286
 20
-51.5243857873
 10
382.4660659673
 20
-52.5090916123
 10
383.2774020208
 20
-53.6197781673
 10
383.9891187294
 20
-54.8507887413
 10
384.5975901472
 20
-56.1958491751
 10
385.0997158466
 20
-57.6481058862
 10
385.4929354065
 20
-59.2001589502
 10
385.7752481687
 20
-60.8440974642
 10
385.9452132378
 20
-62.571546125
 10
386.0019639694
 20
-64.3737023033
 10
385.9452132378
 20
-66.2413814815
 10
385.7752481687
 20
-68.1650676341
 10
385.4929354065
 20
-70.1349575253
 10
385.0997158466
 20
-72.1410122295
 10
384.5975901472
 20
-74.173010933
 10
383.9891187294
 20
-76.220597512
 10
383.2774020208
 20
-78.2733387067
 10
382.4660659673
 20
-80.3207739298
 10
381.5592462286
 20
-82.3524715394
 10
380.5615631528
 20
-84.3580752249
 10
379.4780993865
 20
-86.3273671233
 10
378.314378801
 20
-88.2503126848
 10
377.0763296139
 20
-90.1171108592
 10
375.7702593647
 20
-91.9182511292
 10
374.4028265967
 20
-93.6445541917
 10
372.9809973939
 20
-95.2872229052
 10
371.5120177213
 20
-96.8378871543
 10
370.0033725959
 20
-98.2886456714
 10
368.4627501956
 20
-99.6321034862
 10
366.8980013587
 20
-100.86141812
 10
365.3170992482
 20
-101.9703228709
 10
363.7281000037
 20
-102.9531662594
 10
362.1391007592
 20
-103.8049423477
 10
360.5581986487
 20
-104.5213083216
 10
358.9934498118
 20
-105.0986142398
 10
357.4528274115
 20
-105.5339211863
 10
355.9441822862
 20
-105.8250072547
 10
354.4752026136
 20
-105.9703908342
 10
353.0533734108
 20
-105.9693311757
 10
351.6859406428
 20
-105.8218323813
 10
350.3798703935
 20
-105.5286487234
 10
349.8943031373
 20
-105.377049751
  0
ENDSEC
  0
SECTION
  2
OBJECTS
  0
DICTIONARY
  5
C
330
0
100
AcDbDictionary
281
     1
  3
ACAD_GROUP
350
D
  3
ACAD_LAYOUT
350
1A
  3
ACAD_MLINESTYLE
350
17
  3
ACAD_PLOTSETTINGS
350
19
  3
ACAD_PLOTSTYLENAME
350
E
  3
ACAD_SCALELIST
350
47
  0
DICTIONARY
  5
D
102
{ACAD_REACTORS
330
C
102
}
330
C
100
AcDbDictionary
281
     1
  0
DICTIONARY
  5
1A
102
{ACAD_REACTORS
330
C
102
}
330
C
100
AcDbDictionary
281
     1
  3
Layout1
350
1E
  3
Layout2
350
26
  3
Model
350
22
  0
DICTIONARY
  5
17
102
{ACAD_REACTORS
330
C
102
}
330
C
100
AcDbDictionary
281
     1
  3
Standard
350
18
  0
DICTIONARY
  5
19
102
{ACAD_REACTORS
330
C
102
}
330
C
100
AcDbDictionary
281
     1
  0
ACDBDICTIONARYWDFLT
  5
E
102
{ACAD_REACTORS
330
C
102
}
330
C
100
AcDbDictionary
281
     1
  3
Normal
350
F
100
AcDbDictionaryWithDefault
340
F
  0
DICTIONARY
  5
47
102
{ACAD_REACTORS
330
C
102
}
330
C
100
AcDbDictionary
281
     1
  3
A0
350
48
  3
A1
350
49
  3
A2
350
4A
  3
A3
350
4B
  3
A4
350
4C
  3
A5
350
4D
  3
A6
350
4E
  3
A7
350
4F
  3
A8
350
50
  3
A9
350
51
  3
B0
350
52
  3
B1
350
53
  3
B2
350
54
  3
B3
350
55
  3
B4
350
56
  3
B5
350
57
  3
B6
350
58
  3
B7
350
59
  3
B8
350
5A
  3
B9
350
5B
  3
C0
350
5C
  3
C1
350
5D
  3
C2
350
5E
  3
C3
350
5F
  3
C4
350
60
  3
C5
350
61
  3
C6
350
62
  3
C7
350
63
  3
C8
350
64
  3
C9
350
65
  3
D0
350
66
  3
D1
350
67
  3
D2
350
68
  0
LAYOUT
  5
1E
102
{ACAD_REACTORS
330
1A
102
}
330
1A
100
AcDbPlotSettings
  1

  2
none_device
  4

  6

 40
0.0
 41
0.0
 42
0.0
 43
0.0
 44
0.0
 45
0.0
 46
0.0
 47
0.0
 48
0.0
 49
0.0
140
0.0
141
0.0
142
1.0
143
1.0
 70
   688
 72
     1
 73
     0
 74
     5
  7

 75
    16
147
1.0
148
0.0
149
0.0
100
AcDbLayout
  1
Layout1
 70
     1
 71
     1
 10
0.0
 20
0.0
 11
420.0
 21
297.0
 12
0.0
 22
0.0
 32
0.0
 14
1.0000000000E+20
 24
1.0000000000E+20
 34
1.0000000000E+20
 15
-1.0000000000E+20
 25
-1.0000000000E+20
 35
-1.0000000000E+20
146
0.0
 13
0.0
 23
0.0
 33
0.0
 16
1.0
 26
0.0
 36
0.0
 17
0.0
 27
1.0
 37
0.0
 76
     0
330
1B
  0
LAYOUT
  5
26
102
{ACAD_REACTORS
330
1A
102
}
330
1A
100
AcDbPlotSettings
  1

  2
none_device
  4

  6

 40
0.0
 41
0.0
 42
0.0
 43
0.0
 44
0.0
 45
0.0
 46
0.0
 47
0.0
 48
0.0
 49
0.0
140
0.0
141
0.0
142
1.0
143
1.0
 70
   688
 72
     1
 73
     0
 74
     5
  7

 75
    16
147
1.0
148
0.0
149
0.0
100
AcDbLayout
  1
Layout2
 70
     1
 71
     2
 10
0.0
 20
0.0
 11
0.0
 21
0.0
 12
0.0
 22
0.0
 32
0.0
 14
0.0
 24
0.0
 34
0.0
 15
0.0
 25
0.0
 35
0.0
146
0.0
 13
0.0
 23
0.0
 33
0.0
 16
1.0
 26
0.0
 36
0.0
 17
0.0
 27
1.0
 37
0.0
 76
     0
330
23
  0
LAYOUT
  5
22
102
{ACAD_REACTORS
330
1A
102
}
330
1A
100
AcDbPlotSettings
  1

  2
none_device
  4
Letter_(8.50_x_11.00_Inches)
  6

 40
6.35
 41
6.35
 42
6.35000508
 43
6.35000508
 44
215.9
 45
279.4
 46
0.0
 47
0.0
 48
0.0
 49
0.0
140
0.0
141
0.0
142
1.0
143
1.0
 70
  1712
 72
     1
 73
     0
 74
     0
  7

 75
     0
147
1.0
148
0.0
149
0.0
100
AcDbLayout
  1
Model
 70
     1
 71
     0
 10
0.0
 20
0.0
 11
279.4
 21
215.9
 12
0.0
 22
0.0
 32
0.0
 14
0.0
 24
0.0
 34
0.0
 15
279.4
 25
215.9
 35
0.0
146
0.0
 13
0.0
 23
0.0
 33
0.0
 16
1.0
 26
0.0
 36
0.0
 17
0.0
 27
1.0
 37
0.0
 76
     0
330
1F
331
29
  0
MLINESTYLE
  5
18
102
{ACAD_REACTORS
330
17
102
}
330
17
100
AcDbMlineStyle
  2
Standard
 70
     0
  3

 62
   256
 51
90.0
 52
90.0
 71
     2
 49
0.5
 62
   256
  6
BYLAYER
 49
-0.5
 62
   256
  6
BYLAYER
  0
ACDBPLACEHOLDER
  5
F
102
{ACAD_REACTORS
330
E
102
}
330
E
  0
SCALE
  5
48
102
{ACAD_REACTORS
330
47
102
}
330
47
100
AcDbScale
 70
     0
300
1:1
140
1.0
141
1.0
290
     1
  0
SCALE
  5
49
102
{ACAD_REACTORS
330
47
102
}
330
47
100
AcDbScale
 70
     0
300
1:2
140
1.0
141
2.0
290
     0
  0
SCALE
  5
4A
102
{ACAD_REACTORS
330
47
102
}
330
47
100
AcDbScale
 70
     0
300
1:4
140
1.0
141
4.0
290
     0
  0
SCALE
  5
4B
102
{ACAD_REACTORS
330
47
102
}
330
47
100
AcDbScale
 70
     0
300
1:5
140
1.0
141
5.0
290
     0
  0
SCALE
  5
4C
102
{ACAD_REACTORS
330
47
102
}
330
47
100
AcDbScale
 70
     0
300
1:8
140
1.0
141
8.0
290
     0
  0
SCALE
  5
4D
102
{ACAD_REACTORS
330
47
102
}
330
47
100
AcDbScale
 70
     0
300
1:10
140
1.0
141
10.0
290
     0
  0
SCALE
  5
4E
102
{ACAD_REACTORS
330
47
102
}
330
47
100
AcDbScale
 70
     0
300
1:16
140
1.0
141
16.0
290
     0
  0
SCALE
  5
4F
102
{ACAD_REACTORS
330
47
102
}
330
47
100
AcDbScale
 70
     0
300
1:20
140
1.0
141
20.0
290
     0
  0
SCALE
  5
50
102
{ACAD_REACTORS
330
47
102
}
330
47
100
AcDbScale
 70
     0
300
1:30
140
1.0
141
30.0
290
     0
  0
SCALE
  5
51
102
{ACAD_REACTORS
330
47
102
}
330
47
100
AcDbScale
 70
     0
300
1:40
140
1.0
141
40.0
290
     0
  0
SCALE
  5
52
102
{ACAD_REACTORS
330
47
102
}
330
47
100
AcDbScale
 70
     0
300
1:50
140
1.0
141
50.0
290
     0
  0
SCALE
  5
53
102
{ACAD_REACTORS
330
47
102
}
330
47
100
AcDbScale
 70
     0
300
1:100
140
1.0
141
100.0
290
     0
  0
SCALE
  5
54
102
{ACAD_REACTORS
330
47
102
}
330
47
100
AcDbScale
 70
     0
300
2:1
140
2.0
141
1.0
290
     0
  0
SCALE
  5
55
102
{ACAD_REACTORS
330
47
102
}
330
47
100
AcDbScale
 70
     0
300
4:1
140
4.0
141
1.0
290
     0
  0
SCALE
  5
56
102
{ACAD_REACTORS
330
47
102
}
330
47
100
AcDbScale
 70
     0
300
8:1
140
8.0
141
1.0
290
     0
  0
SCALE
  5
57
102
{ACAD_REACTORS
330
47
102
}
330
47
100
AcDbScale
 70
     0
300
10:1
140
10.0
141
1.0
290
     0
  0
SCALE
  5
58
102
{ACAD_REACTORS
330
47
102
}
330
47
100
AcDbScale
 70
     0
300
100:1
140
100.0
141
1.0
290
     0
  0
SCALE
  5
59
102
{ACAD_REACTORS
330
47
102
}
330
47
100
AcDbScale
 70
     0
300
1/128" = 1'-0"
140
0.0078125
141
12.0
290
     0
  0
SCALE
  5
5A
102
{ACAD_REACTORS
330
47
102
}
330
47
100
AcDbScale
 70
     0
300
1/64" = 1'-0"
140
0.015625
141
12.0
290
     0
  0
SCALE
  5
5B
102
{ACAD_REACTORS
330
47
102
}
330
47
100
AcDbScale
 70
     0
300
1/32" = 1'-0"
140
0.03125
141
12.0
290
     0
  0
SCALE
  5
5C
102
{ACAD_REACTORS
330
47
102
}
330
47
100
AcDbScale
 70
     0
300
1/16" = 1'-0"
140
0.0625
141
12.0
290
     0
  0
SCALE
  5
5D
102
{ACAD_REACTORS
330
47
102
}
330
47
100
AcDbScale
 70
     0
300
3/32" = 1'-0"
140
0.09375
141
12.0
290
     0
  0
SCALE
  5
5E
102
{ACAD_REACTORS
330
47
102
}
330
47
100
AcDbScale
 70
     0
300
1/8" = 1'-0"
140
0.125
141
12.0
290
     0
  0
SCALE
  5
5F
102
{ACAD_REACTORS
330
47
102
}
330
47
100
AcDbScale
 70
     0
300
3/16" = 1'-0"
140
0.1875
141
12.0
290
     0
  0
SCALE
  5
60
102
{ACAD_REACTORS
330
47
102
}
330
47
100
AcDbScale
 70
     0
300
1/4" = 1'-0"
140
0.25
141
12.0
290
     0
  0
SCALE
  5
61
102
{ACAD_REACTORS
330
47
102
}
330
47
100
AcDbScale
 70
     0
300
3/8" = 1'-0"
140
0.375
141
12.0
290
     0
  0
SCALE
  5
62
102
{ACAD_REACTORS
330
47
102
}
330
47
100
AcDbScale
 70
     0
300
1/2" = 1'-0"
140
0.5
141
12.0
290
     0
  0
SCALE
  5
63
102
{ACAD_REACTORS
330
47
102
}
330
47
100
AcDbScale
 70
     0
300
3/4" = 1'-0"
140
0.75
141
12.0
290
     0
  0
SCALE
  5
64
102
{ACAD_REACTORS
330
47
102
}
330
47
100
AcDbScale
 70
     0
300
1" = 1'-0"
140
1.0
141
12.0
290
     0
  0
SCALE
  5
65
102
{ACAD_REACTORS
330
47
102
}
330
47
100
AcDbScale
 70
     0
300
1-1/2" = 1'-0"
140
1.5
141
12.0
290
     0
  0
SCALE
  5
66
102
{ACAD_REACTORS
330
47
102
}
330
47
100
AcDbScale
 70
     0
300
3" = 1'-0"
140
3.0
141
12.0
290
     0
  0
SCALE
  5
67
102
{ACAD_REACTORS
330
47
102
}
330
47
100
AcDbScale
 70
     0
300
6" = 1'-0"
140
6.0
141
12.0
290
     0
  0
SCALE
  5
68
102
{ACAD_REACTORS
330
47
102
}
330
47
100
AcDbScale
 70
     0
300
1'-0" = 1'-0"
140
12.0
141
12.0
290
     0
  0
ENDSEC
  0
EOF
